999
"DXF R12 Output" (www.mydxf.blogspot.com)
 0 
SECTION
 2 
HEADER
 9 
$ACADVER
 1 
AC1009
 9 
$EXTMIN
 10 
 0 
 20 
 0 
 9 
$EXTMAX
 10 
 8.5 
 20 
 11 
 0 
ENDSEC
 0 
SECTION
 2 
ENTITIES
0
LINE
8
Layer 1
10
69.303100
20
232.383000
11
69.190655
21
230.152600
0
LINE
8
Layer 1
10
69.190655
20
230.152600
11
68.860589
21
227.986421
0
LINE
8
Layer 1
10
68.860589
20
227.986421
11
68.323820
21
225.895408
0
LINE
8
Layer 1
10
68.323820
20
225.895408
11
67.591271
21
223.890508
0
LINE
8
Layer 1
10
67.591271
20
223.890508
11
66.673861
21
221.982668
0
LINE
8
Layer 1
10
66.673861
20
221.982668
11
65.582511
21
220.182833
0
LINE
8
Layer 1
10
65.582511
20
220.182833
11
64.328142
21
218.501951
0
LINE
8
Layer 1
10
64.328142
20
218.501951
11
62.921673
21
216.950967
0
LINE
8
Layer 1
10
62.921673
20
216.950967
11
61.374025
21
215.540828
0
LINE
8
Layer 1
10
61.374025
20
215.540828
11
59.696119
21
214.282480
0
LINE
8
Layer 1
10
59.696119
20
214.282480
11
57.898875
21
213.186869
0
LINE
8
Layer 1
10
57.898875
20
213.186869
11
55.993213
21
212.264942
0
LINE
8
Layer 1
10
55.993213
20
212.264942
11
53.990054
21
211.527646
0
LINE
8
Layer 1
10
53.990054
20
211.527646
11
51.900319
21
210.985925
0
LINE
8
Layer 1
10
51.900319
20
210.985925
11
49.734927
21
210.650728
0
LINE
8
Layer 1
10
49.734927
20
210.650728
11
47.504800
21
210.533000
0
LINE
8
Layer 1
10
47.504800
20
210.533000
11
45.274179
21
210.640165
0
LINE
8
Layer 1
10
45.274179
20
210.640165
11
43.107261
21
210.965095
0
LINE
8
Layer 1
10
43.107261
20
210.965095
11
41.015016
21
211.496898
0
LINE
8
Layer 1
10
41.015016
20
211.496898
11
39.008417
21
212.224680
0
LINE
8
Layer 1
10
39.008417
20
212.224680
11
37.098435
21
213.137545
0
LINE
8
Layer 1
10
37.098435
20
213.137545
11
35.296042
21
214.224601
0
LINE
8
Layer 1
10
35.296042
20
214.224601
11
33.612210
21
215.474954
0
LINE
8
Layer 1
10
33.612210
20
215.474954
11
32.057911
21
216.877710
0
LINE
8
Layer 1
10
32.057911
20
216.877710
11
30.644116
21
218.421975
0
LINE
8
Layer 1
10
30.644116
20
218.421975
11
29.381797
21
220.096855
0
LINE
8
Layer 1
10
29.381797
20
220.096855
11
28.281926
21
221.891457
0
LINE
8
Layer 1
10
28.281926
20
221.891457
11
27.355475
21
223.794886
0
LINE
8
Layer 1
10
27.355475
20
223.794886
11
26.613415
21
225.796249
0
LINE
8
Layer 1
10
26.613415
20
225.796249
11
26.066718
21
227.884651
0
LINE
8
Layer 1
10
26.066718
20
227.884651
11
25.726356
21
230.049199
0
LINE
8
Layer 1
10
25.726356
20
230.049199
11
25.603300
21
232.279000
0
LINE
8
Layer 1
10
25.603300
20
232.279000
11
25.705179
21
234.509903
0
LINE
8
Layer 1
10
25.705179
20
234.509903
11
26.024981
21
236.677617
0
LINE
8
Layer 1
10
26.024981
20
236.677617
11
26.551837
21
238.771145
0
LINE
8
Layer 1
10
26.551837
20
238.771145
11
27.274879
21
240.779489
0
LINE
8
Layer 1
10
27.274879
20
240.779489
11
28.183239
21
242.691650
0
LINE
8
Layer 1
10
28.183239
20
242.691650
11
29.266048
21
244.496631
0
LINE
8
Layer 1
10
29.266048
20
244.496631
11
30.512438
21
246.183435
0
LINE
8
Layer 1
10
30.512438
20
246.183435
11
31.911541
21
247.741062
0
LINE
8
Layer 1
10
31.911541
20
247.741062
11
33.452487
21
249.158515
0
LINE
8
Layer 1
10
33.452487
20
249.158515
11
35.124409
21
250.424797
0
LINE
8
Layer 1
10
35.124409
20
250.424797
11
36.916438
21
251.528909
0
LINE
8
Layer 1
10
36.916438
20
251.528909
11
38.817706
21
252.459854
0
LINE
8
Layer 1
10
38.817706
20
252.459854
11
40.817345
21
253.206633
0
LINE
8
Layer 1
10
40.817345
20
253.206633
11
42.904486
21
253.758249
0
LINE
8
Layer 1
10
42.904486
20
253.758249
11
45.068260
21
254.103704
0
LINE
8
Layer 1
10
45.068260
20
254.103704
11
47.297800
21
254.232000
0
LINE
8
Layer 1
10
47.297800
20
254.232000
11
49.528905
21
254.135406
0
LINE
8
Layer 1
10
49.528905
20
254.135406
11
51.697341
21
253.820747
0
LINE
8
Layer 1
10
51.697341
20
253.820747
11
53.792084
21
253.298863
0
LINE
8
Layer 1
10
53.792084
20
253.298863
11
55.802111
21
252.580598
0
LINE
8
Layer 1
10
55.802111
20
252.580598
11
57.716398
21
251.676792
0
LINE
8
Layer 1
10
57.716398
20
251.676792
11
59.523922
21
250.598287
0
LINE
8
Layer 1
10
59.523922
20
250.598287
11
61.213661
21
249.355925
0
LINE
8
Layer 1
10
61.213661
20
249.355925
11
62.774590
21
247.960548
0
LINE
8
Layer 1
10
62.774590
20
247.960548
11
64.195687
21
246.422998
0
LINE
8
Layer 1
10
64.195687
20
246.422998
11
65.465928
21
244.754116
0
LINE
8
Layer 1
10
65.465928
20
244.754116
11
66.574290
21
242.964744
0
LINE
8
Layer 1
10
66.574290
20
242.964744
11
67.509750
21
241.065725
0
LINE
8
Layer 1
10
67.509750
20
241.065725
11
68.261284
21
239.067899
0
LINE
8
Layer 1
10
68.261284
20
239.067899
11
68.817869
21
236.982108
0
LINE
8
Layer 1
10
68.817869
20
236.982108
11
69.168482
21
234.819194
0
LINE
8
Layer 1
10
69.168482
20
234.819194
11
69.302100
21
232.590000
0
LINE
8
Layer 1
10
162.433000
20
149.706000
11
162.258641
21
146.247696
0
LINE
8
Layer 1
10
162.258641
20
146.247696
11
161.746854
21
142.888968
0
LINE
8
Layer 1
10
161.746854
20
142.888968
11
160.914571
21
139.646789
0
LINE
8
Layer 1
10
160.914571
20
139.646789
11
159.778724
21
136.538131
0
LINE
8
Layer 1
10
159.778724
20
136.538131
11
158.356246
21
133.579967
0
LINE
8
Layer 1
10
158.356246
20
133.579967
11
156.664069
21
130.789269
0
LINE
8
Layer 1
10
156.664069
20
130.789269
11
154.719126
21
128.183010
0
LINE
8
Layer 1
10
154.719126
20
128.183010
11
152.538348
21
125.778163
0
LINE
8
Layer 1
10
152.538348
20
125.778163
11
150.138670
21
123.591700
0
LINE
8
Layer 1
10
150.138670
20
123.591700
11
147.537022
21
121.640593
0
LINE
8
Layer 1
10
147.537022
20
121.640593
11
144.750338
21
119.941815
0
LINE
8
Layer 1
10
144.750338
20
119.941815
11
141.795549
21
118.512338
0
LINE
8
Layer 1
10
141.795549
20
118.512338
11
138.689589
21
117.369136
0
LINE
8
Layer 1
10
138.689589
20
117.369136
11
135.449389
21
116.529181
0
LINE
8
Layer 1
10
135.449389
20
116.529181
11
132.091882
21
116.009444
0
LINE
8
Layer 1
10
132.091882
20
116.009444
11
128.634000
21
115.826900
0
LINE
8
Layer 1
10
128.634000
20
115.826900
11
125.175294
21
115.993063
0
LINE
8
Layer 1
10
125.175294
20
115.993063
11
121.815364
21
116.496889
0
LINE
8
Layer 1
10
121.815364
20
116.496889
11
118.571223
21
117.321486
0
LINE
8
Layer 1
10
118.571223
20
117.321486
11
115.459883
21
118.449962
0
LINE
8
Layer 1
10
115.459883
20
118.449962
11
112.498357
21
119.865425
0
LINE
8
Layer 1
10
112.498357
20
119.865425
11
109.703658
21
121.550983
0
LINE
8
Layer 1
10
109.703658
20
121.550983
11
107.092798
21
123.489743
0
LINE
8
Layer 1
10
107.092798
20
123.489743
11
104.682789
21
125.664814
0
LINE
8
Layer 1
10
104.682789
20
125.664814
11
102.490646
21
128.059303
0
LINE
8
Layer 1
10
102.490646
20
128.059303
11
100.533379
21
130.656318
0
LINE
8
Layer 1
10
100.533379
20
130.656318
11
98.828001
21
133.438967
0
LINE
8
Layer 1
10
98.828001
20
133.438967
11
97.391526
21
136.390358
0
LINE
8
Layer 1
10
97.391526
20
136.390358
11
96.240966
21
139.493599
0
LINE
8
Layer 1
10
96.240966
20
139.493599
11
95.393333
21
142.731798
0
LINE
8
Layer 1
10
95.393333
20
142.731798
11
94.865640
21
146.088062
0
LINE
8
Layer 1
10
94.865640
20
146.088062
11
94.674900
21
149.545500
0
LINE
8
Layer 1
10
94.674900
20
149.545500
11
94.832868
21
153.004594
0
LINE
8
Layer 1
10
94.832868
20
153.004594
11
95.328732
21
156.365712
0
LINE
8
Layer 1
10
95.328732
20
156.365712
11
96.145642
21
159.611802
0
LINE
8
Layer 1
10
96.145642
20
159.611802
11
97.266745
21
162.725810
0
LINE
8
Layer 1
10
97.266745
20
162.725810
11
98.675190
21
165.690684
0
LINE
8
Layer 1
10
98.675190
20
165.690684
11
100.354125
21
168.489371
0
LINE
8
Layer 1
10
100.354125
20
168.489371
11
102.286697
21
171.104819
0
LINE
8
Layer 1
10
102.286697
20
171.104819
11
104.456055
21
173.519975
0
LINE
8
Layer 1
10
104.456055
20
173.519975
11
106.845348
21
175.717787
0
LINE
8
Layer 1
10
106.845348
20
175.717787
11
109.437723
21
177.681201
0
LINE
8
Layer 1
10
109.437723
20
177.681201
11
112.216329
21
179.393166
0
LINE
8
Layer 1
10
112.216329
20
179.393166
11
115.164313
21
180.836628
0
LINE
8
Layer 1
10
115.164313
20
180.836628
11
118.264824
21
181.994535
0
LINE
8
Layer 1
10
118.264824
20
181.994535
11
121.501010
21
182.849834
0
LINE
8
Layer 1
10
121.501010
20
182.849834
11
124.856019
21
183.385474
0
LINE
8
Layer 1
10
124.856019
20
183.385474
11
128.313000
21
183.584400
0
LINE
8
Layer 1
10
128.313000
20
183.584400
11
131.772455
21
183.434629
0
LINE
8
Layer 1
10
131.772455
20
183.434629
11
135.134734
21
182.946730
0
LINE
8
Layer 1
10
135.134734
20
182.946730
11
138.382746
21
182.137515
0
LINE
8
Layer 1
10
138.382746
20
182.137515
11
141.499399
21
181.023795
0
LINE
8
Layer 1
10
141.499399
20
181.023795
11
144.467599
21
179.622382
0
LINE
8
Layer 1
10
144.467599
20
179.622382
11
147.270254
21
177.950086
0
LINE
8
Layer 1
10
147.270254
20
177.950086
11
149.890272
21
176.023720
0
LINE
8
Layer 1
10
149.890272
20
176.023720
11
152.310560
21
173.860094
0
LINE
8
Layer 1
10
152.310560
20
173.860094
11
154.514026
21
171.476020
0
LINE
8
Layer 1
10
154.514026
20
171.476020
11
156.483577
21
168.888309
0
LINE
8
Layer 1
10
156.483577
20
168.888309
11
158.202122
21
166.113772
0
LINE
8
Layer 1
10
158.202122
20
166.113772
11
159.652566
21
163.169221
0
LINE
8
Layer 1
10
159.652566
20
163.169221
11
160.817819
21
160.071467
0
LINE
8
Layer 1
10
160.817819
20
160.071467
11
161.680787
21
156.837321
0
LINE
8
Layer 1
10
161.680787
20
156.837321
11
162.224378
21
153.483595
0
LINE
8
Layer 1
10
162.224378
20
153.483595
11
162.431500
21
150.027100
0
LINE
8
Layer 1
10
64.503000
20
246.052000
11
149.556000
21
176.215000
0
LINE
8
Layer 1
10
32.440000
20
216.016000
11
94.995500
21
138.069250
0
LINE
8
Layer 1
10
94.995500
20
138.069250
11
103.965000
21
127.006000
 0 
ENDSEC
 0 
EOF